Slyšíš ty svaté hory?

Aerials bass

19.01.2009 19:43
Intro:  Riff a
F|------------------------------------------------------------|
C|------------------------------------------------------------|
G|-8-7-5--5-5-5--10-8-7--7-7-7--8-10-12-13-12-10-8-7-5--5-5-5-|
C|------------------------------------------------------------|

Riff b
F|---------------------------------------------------------------|
C|---------------------------------------------------------------|
G|-7/12-10-7-7-7--7/14-10-7-7-7--7/12-14-15-17-15-17-15-14-15-12-|
C|---------------------------------------------------------------|

Verse:  Riff a "Life is a waterfall..."
F|--------------------------------|
C|--------------------------------|
G|--------------------------------|
C|-8--8-8--8--8-8--8--8-8--8--8-8-|

Riff b
F|-----------------------------|
C|-----------------------------|
G|------10-----8------7------5-|
C|-0000---0000---0000---0000---|

Chorus:  "Aerials, in the sky..."
F|------------------------------------------------------------|
C|------------------------------------------------------------|
G|-8-7-5--5-5-5--10-8-7--7-7-7--8-10-12-13-12-10-8-7-5--5-5-5-|
C|------------------------------------------------------------|

Fill at end of last verse leading into the heavy bridge:
F|---------------------------------|
C|---------------------------------|
G|---------------------------------|
C|-7-7-7-7-7-7-7-7-5-5-5-5-5-5-5-5-|

Bridge:
F|------------------------------------------|
C|------------------------------------------|
G|------------------------------------------|
C|-3-2-0~--5-3-2~--3-5-7-8-7-5-3-2-0--0-0-0-|

v.1.1; Pavel Eder © 2008-2009 všechna práva vyhrazena.

Vytvořte si webové stránky zdarma!Webnode