Slyšíš ty svaté hory?

ATWA bass

19.01.2009 19:44
F|----------------------------------------------------------|
C|----------------------------------------------------------|
G|-------10--10\8--8/12--12/13--13/15--15\13--13\12--12\10--|
C|--<12>----------------------------------------------------|

                                                           x2
F||--------------------------------------------------------||
C||*------------------------------------------------------*||
G||*-10-10--10\8--8/12--12/13--13/15--15\13--13\12--12\10-*||
C||--------------------------------------------------------||


riff A
                    x4
F||-----------------||
C||*---------------*||
G||*---------------*||
C||--5-5-5-5-5-5-5--||

           riff B                                     x2
F|-----||---------------------------------------------||
C|-----||*-------------------------------------------*||
G|-----||*-------------------------------------------*||
C|--5--||--5--5\3--3/7--7/8--8/10--10\8--8\7--7\5--5--||

riff A x4


riff C
                    x2
F||-----------------||
C||*---------------*||
G||*---------------*||
C||--5--5--5--5-6~~-||

F|-------|--------------------------------------------------------|
C|-------|--------------------------------------------------------|
G|-------|--------------------------------------------------------|
C|--\\\--|--5-5~-\3-3~-/7-7~-/8-8~-/10-10~-\8-8~-\7-7~-\5-5~-//\\-|

F|----------------------------------------------------------------|
C|----------------------------------------------------------------|
G|----------------------------------------------------------------|
C|-55555555\33333333/77777777/88888888/1010101010101010\88888888\-|
                                        *These are tens!

F|----------------------------||----------------------------------|
C|----------------------------||*---------------------------------|
G|----------------------------||*---------------------------------|
C|-77777777\55555555--///-\\\-||--5-5\-3-3/-7-7/-8-8/-10-10\-8-8\-|

F|-----------||
C|----------*||
G|----------*||
C|-7-7\-5-5--||

riff A x4
riff C x2

v.1.1; Pavel Eder © 2008-2009 všechna práva vyhrazena.

Vytvořte si webové stránky zdarma!Webnode