Slyšíš ty svaté hory?

Chop Suey bass

19.01.2009 19:47
     intro
F|--------|-----------------------------------------------|
C|--------|-----------------------------------------------|
G|--------|-----5--3---------5--3-------------------------|
C|--7~~~--|--7--------3---7--------3--3-3--3-3--3-3--3-3--|

        riff A                      end riff A
F||-----------------------------------------||
C||*---------------------------------------*||
G||*-----------------------------54545454--*||
C||---76767676-65656565-98989898------------||

        riff B                      end riff B
F||-----------------------------------------||
C||*---------------------------------------*||
G||*--------------------22222222/55555555--*||
C||--77777777-88888888----------------------||

           riff C
F|------||-------------|--------------||--------------|-------------|
C|------||*------------|-------------*||--------------|-------------|
G|------||*------------|-------------*||--------------|-------------|
C|--77--||--7-7-7-7-66-|--6-6-6-6-77--||--77777777-66-|-66666666-77-|

                  end riff C
F|--------------|----------|
C|--------------|----------|
G|--------------|----------|
C|--77777777-66-|-66666666-|

        riff D
F|-----------------------------------|
C|-----------------------------------|
G|-----5--3-------------5--3---------|
C|--7--------3--3-5--7--------3--3-5-|

riff A

F|-------------------|
C|-------------------|
G|-------------------|
C|--767676767676-77--|

riff C
riff D

F||--------------------------------||
C||*------------------------------*||
G||*--------55-5-5--33-3-3--------*||
C||--77-7-7----------------33-3-5--||

riff A
riff B x2

F||--------------------------||-------------------------------------
C||*------------------------*||-------------------------------------
G||*------------------------*||-------------------------------------
C||---/7--\3--/10--\3--3-5---||---/77--7-7-0--33--3-3-/10-10--10-10-

             x3
F|------------|--------------------------------------------------|
C|------------|--------------------------------------------------|
G|------------|--------------------------------------------------|
C|--\33--3-5--|-/77-7-7-0--33-3-3-/10-10--10-10--\33-3-3-3-/7~~~-|

v.1.1; Pavel Eder © 2008-2009 všechna práva vyhrazena.

Vytvořte si webové stránky zdarma!Webnode