Slyšíš ty svaté hory?

Cubert bass

19.01.2009 19:48
Intro/Verse
F|--------------------
C|--------------------
G|--------------------
C|-5-5-5-5-5-5-5-5-5--

Chorus
F|--------------------------------
C|--------------------------------
G|----5----------5----------------
C|--5---7-8-5------7-8-7-8-7-8--5-

Bridge
F|--------------------------------
C|--------------------------------
G|--------------------------------
C|-4-4-4-4-4-4-4--5-5-5-5-5-5-5-5-

v.1.1; Pavel Eder © 2008-2009 všechna práva vyhrazena.

Vytvořte si webové stránky zdarma!Webnode