Slyšíš ty svaté hory?

Darts bass

19.01.2009 19:48
Intro/Chorus
G---------------------------------------------------------------
D---------------------------------------------3-333333-----
A-3-333333----------------2-222222--------------------
E----------------2-222222----------------------------------
Verse
G--------------------------------------------------------------
D---------------44444444----------------33333333---
A-33333333---------------22222222------------------
E--------------------------------------------------------------
After every 2 measures
D---3333----------------------------------------------------
Interlude
G--------------------------------------------------------------
D----------------4-----------------------3--------------------
A--3-----------------------2----------------------------------
E--------------------------------------------------------------
Order of riffs
Intro/Chorus X2
Verse X4
Intro/Chorus X2
Verse X6
Intro/Chorus X2
Interlude X1
Verse X1 (w/ distortion)
Interlude X2
Verse X1
Interlude X1
Verse X1
Interlude X1
Verse X1
Interlude X1
Verse X1
Interlude X1
Verse X1
Intro/Chorus X2
Intro/Chorus(replaced w/ quarter notes) X1
InterludeX2

v.1.1; Pavel Eder © 2008-2009 všechna práva vyhrazena.

Vytvořte si webové stránky zdarma!Webnode