Slyšíš ty svaté hory?

Ddevil bass

19.01.2009 19:49
 Intro. . .
F-------------------------------
C-----3--5---3--5--3--5-5-5-5-5-
G-------------------------------
C-------------------------------

 . . .continued
|-------------------------------------------------
|------------------------------------------------- 
|-------------------------------------------------     
|---5-5-5-5----3-3-3-3--(x3)---3-3-3--5-5-5-(x2)-- 

 
 after intro
F-----------------
C-----------------
G-----------------
C----5--3--5--3-3-

 Verse
G--------
C--------
F--------
C---5--3-

 Chorus
F-------------------------------------------------
C-------------------------------------------------
G-------------------------------------------------
C---5-----3-----5-----3-----5-5---3-3----5------3-

v.1.1; Pavel Eder © 2008-2009 všechna práva vyhrazena.

Vytvořte si webové stránky zdarma!Webnode