Slyšíš ty svaté hory?

Dear Dance bass

19.01.2009 19:50
riff I

        t      t      t
F||---------------------------||-----------------------------------|
C||*-------------------------*||-----------------------------------|
G||*-------------------------*||-----------------------------------|
C||--1-1-0--1-1-0--1-1-0---1--||--1-0-1-0-1-0-1-0-1-0-1-0-1-0-1-0--|

                                end riff I
F|-------------------|-------------------|
C|-------------------|-------------------|
G|-------------------|-------------------|
C|--1-0-1-0-1-0---1--|--1-0-1-0-1-0---1--|


riff II
                                  x5
F||-------------------------------||
C||*-----------------------------*||
G||*-----------------------------*||
C||---5/7\5---3/5\3---1/3\1---0---||


riff I
riff II
riff I

                    x2                x3
F||-----------------||-----------------|------------------|
C||*---------------*||*----------------|------------------|
G||*---------------*||*----------------|------------------|
C||---55-55-55-55---||---55-55-55-55---|---55-55-55-5-0---|

                x3
F|---------------|----------------||---------------|----------------|
C|---------------|---------------*||---------------|----------------|
G|---------------|---------------*||---------------|----------------|
C|--33-33-33-33--|--33-33-33-3-0--||--55-55-55-55--|--55-55-55-5-0--|


F|---------------|----------------|----------------------------|
C|---------------|----------------|----------------------------|
G|---------------|----------------|----------------------------|
C|--33-33-33-33--|--33-33-33-3-0--|--11-11-11-11-/33-33-33-33--|

                    x2
F||-----------------||
C||*---------------*||
G||*---------------*||
C||---55-55-55-55---||

riff I


F||------------------------------------||
C||*----------------------------------*||
G||*----------------------------------*||
C||---1-0-1-0-1-0-1-0-1-0-1-0-1-0--1---||

v.1.1; Pavel Eder © 2008-2009 všechna práva vyhrazena.

Vytvořte si webové stránky zdarma!Webnode