Slyšíš ty svaté hory?

Forest bass

19.01.2009 19:51
Intro (timing may be bit tricky first, listen closely)

F|------------------------|---------------------|
C|------------------------|---------------------|
G|--5--5555-5555-5555-55--|--6--666-666-666-66--|
C|------------------------|---------------------|

F|------------------------|-----------------------|
C|------------------------|-----------------------|
G|--7--7777-7777-7777-77--|--8--888-8888-8888-88--|
C|------------------------|-----------------------|

F|-----------------------|-----------------------|
C|-----------------------|-----------------------|
G|--5--555-5555-5555-55--|--6--666-6666-6666-66--|
C|-----------------------|-----------------------|

F|-----------------------|------------------|
C|-----------------------|------------------|
G|--7--777-7777-7777-77--|--88--88--88--88--|
C|-----------------------|------------------|


riff I
                                  end riff I
F|------------------------------------------|
C|------------------------------------------|
G|------------------------------------------|
C|--0--0-64---0--0-64---0--0-64---0--0-64---|


riff II
                                  end riff II
F|------------------------------------------|
C|------------------------------------------|
G|------------------------------------------|
C|--0--0-46---0--0-64---0--0-46---0--0-46---|

riff I
riff II


riff III

F|----------|----------|----------|-----------|----------|----------|
C|----------|----------|----------|-----------|----------|----------|
G|--5~--6~--|--riff-I--|--6~--7~--|--riff-II--|--5~--6~--|--riff-I--|
C|----------|----------|----------|-----------|----------|----------|

                         end riff III
F|------------------|--------------|
C|------------------|--------------|
G|--6~--7~--8~--9~--|--6~--7~--8~--|
C|------------------|--------------|


riff IV
                                  end riff IV    x2
F||-----------------|----------------------------||----------------|
C||*----------------|---------------------------*||----------------|
G||*----------------|---------------------------*||----------------|
C||---8-10-8-7-5-3--|--0-0---0-1-1---1/5-5---5---||--8-10-8-7-5-3--|


riff V
                                      end riff V
F|---------------------------------------------|
C|---------------------------------------------|
G|---------------------------------------------|
C|--00--0-64---00--0-64---00--0-64---00--0-64--|

riff VI
                                     end riff VI
F|---------------------------------------------|
C|---------------------------------------------|
G|---------------------------------------------|
C|--00--0-46---00--0-46---00--0-46---00--0-46--|

riff III
riff IV


F|----------------------------------------------|
C|----------------------------------------------|
G|----------------------------------------------|
C|--8-8--8-8-7-5---8-8--8-8-7-5---8-8--8-8-7-5--|

riff V
riff VI

F|-------------------------------|
C|-------------------------------|
G|-----------------6-6--6-6-5-3--|
C|--8-8--8-8-7-5-----------------|

riff V

F|----------------------------------------------|
C|----------------------------------------------|
G|-----------------6-6--6-6-5-3---8-8--8-8-6-5--|
C|--8-8--8-8-7-5--------------------------------|

riff V

F|-------------------------------------------------------|
C|-------------------------------------------------------|
G|--8-8--8-8-7-5---10-10--10-10-8-6---11-11--11-11-10-8--|
C|-------------------------------------------------------|

                                             x2
F|----------------------||-------------------||
C|----------------------||*-----------------*||
G|--13-13--13-13-11-10--||*-----------------*||
C|----------------------||---00-00-0000-0x---||

                                                      x3
F|------------------------------------------------------|
C|------------------------------------------------------|
G|--54-54-54-54--65-65-65-65--76-76-76-76--87-87-87-87--|
C|------------------------------------------------------|

F|-----------------------------------------|
C|-----------------------------------------|
G|--54-54-54-54--65-65-65-65--76-76-76-76--|
C|-----------------------------------------|

riff IV (but just once)

F||----------------|-------------------------------------|
C||*---------------|-------------------------------------|
G||*---------------|-------------------------------------|
C||--8-10-8-7-5-3--|--00-00-0000-00-00-11-11-1111-11-11--|

F|-----------------------||--------------------|
C|----------------------*||--------------------|
G|----------------------*||--------------------|
C|---/55-55-5555-55-55---||--8-10-8-7-5-3-0~~--|

v.1.1; Pavel Eder © 2008-2009 všechna práva vyhrazena.

Vytvořte si webové stránky zdarma!Webnode