Slyšíš ty svaté hory?

Lonely Day bass

19.01.2009 19:52
Guitar solo intro


Bass comes in with drums
F---------------------------------------------
C--8-8-------11-11----------------------------
G-------9-9---------8-8----------------------- 2x
C---------------------------------------------

F---------------------------------------------
C--8-----11-----------------------------------
G-----9------8-------------------------------- 4x
C---------------------------------------------

F------------------------------------------------------
C------------------------------------------------------
G--9-9-9-9-9--8-8-8-8-8--11-11-11-11-11--13-13-13-13-13 1x
C------------------------------------------------------

F---------------------------------------------
C---------------------------------------------
G--9-9-9-9-9-9-9-9-9-9--8-8-8-8-8-8-8-8-8-8--- 1x
C---------------------------------------------

F---------------------------------------------
C--8-8-------11-11----------------------------
G-------9-9---------8-8----------------------- 8x
C---------------------------------------------

F---------------------------------------------
C--8-----11-----------------------------------
G-----9------8-------------------------------- 2x
C---------------------------------------------

F---------------------------------------------
C--------------------------------------------
G--13----------------------------------------- 1x
C---------------------------------------------

v.1.1; Pavel Eder © 2008-2009 všechna práva vyhrazena.

Vytvořte si webové stránky zdarma!Webnode