Slyšíš ty svaté hory?

Suggestions bass

19.01.2009 20:18
VERSE

G|---------------------------|
D|---------------------------|
A|-4-4-4--4-3-4-5-5-5--4-3-2-|
E|--3-3-3--------4-4-4-------|

CHORUS

G|--------------------------|
D|--------------------------|
A|--------------------------|
E|-3-3-3-3--3-3-5-5-5-5--5-5|

INTERLUDE

G|-----------------------------|
D|-----------------------------|  KINDA SMUGGLE A LITTLE
A|--------------4-------------6|
E|-4444444444444-6666666666666-|

v.1.1; Pavel Eder © 2008-2009 všechna práva vyhrazena.

Vytvořte si webové stránky zdarma!Webnode