Slyšíš ty svaté hory?

Suite Pee bass

19.01.2009 20:18
Beggining and chorus:
G|---------------|--------------|
D|---------------|--------------|
A|---------------|--------------|
C|-0-0-0-0-1-0-1-|0-0-0-0-1-0-3-| 
Chorus for A five string:
G|---------------|
D|---------------|
A|---------------|
E|---------------|
B|-1-1-1-1-2-1-2-|

Verse:the verse is obviously the same for a five string.
G|---------------|--------------|
D|---------------|--------------|
A|-3-3-3-3-4-3-4-|3-3-3-3-4-3-6-| 
C|---------------|--------------|

Interlude:
G|------------|
D|------------|
A|------------|
C|0-1-0-0-5-4-|
Interlude,played on a five string:
G|-------------|
D|-------------|
A|-------------|
E|-------------|
B|-1-2-1-1-6-5-|

v.1.1; Pavel Eder © 2008-2009 všechna práva vyhrazena.

Vytvořte si webové stránky zdarma!Webnode