Slyšíš ty svaté hory?

Toxicity bass

19.01.2009 20:19
riff I

F||-------|---------|-------------------------------||
C||*------|---------|------------------------------*||
G||*------|---------|--1--111-1-1-1--0--000-0-0-0--*||
C||---0---|--32020--|-------------------------------||

F|------------------------------------|-----------------------------|
C|------------------------------------|-----------------------------|
G|------------------------------------|--1--111-1-1-1--0--000-0-0-0-|
C|----320200--320200--320200--320200--|-----------------------------|

                                         end riff I
F|-------|---------|------------------------------|
C|-------|---------|------------------------------|
G|-------|---------|--1--111-1-1-1--0--000-0-0-0--|
C|---0---|--32020--|------------------------------|

F|------------------------------------------|
C|------------------------------------------|
G|------------------------------------------|
C|--0--0--00--0--0--00--3--3--33--3--3--33--|

   riff II                end riff II  riff III
F|-----------------------------------|------------------------------|
C|-----------------------------------|------------------------------|
G|----------------------3-3-3--3-3---|-----------------------3-3-3--|
C|-0--0--00--0--0--00--3-3-3--3-3-33-|--0--0--00--0--0--00--3-3-3---|

   end riff III  x2
F|---------------|------------------------------------|
C|---------------|------------------------------------|
G|---3-3-3-------|----------------------3-3-3--3-3----|
C|--3-3-3--------|-0--0--00--0--0--00--3-3-3--3-3-33--|

riff III x2

riff I

riff III x3
riff II
riff III x3

riff I

F||------------------------------------||------------------||
C||*----------------------------------*||*----------------*||
G||*----------------------------------*||*----------------*||
C||---320000--320000--320000--320000---||---0--000--3202~--||

F||------------------------------------||
C||*----------------------------------*||
G||*----------------------------------*||
C||---320000--320000--320000--320000---||

F||-----------------------------------||
C||*---------------------------------*||
G||*---------------------------------*||
C||---0--0-0--3202~---0-0000--3202~---||

v.1.1; Pavel Eder © 2008-2009 všechna práva vyhrazena.

Vytvořte si webové stránky zdarma!Webnode