Slyšíš ty svaté hory?

War bass

19.01.2009 20:19
riff one
------------------------------------------------------------------------------
------------------------------------------------------------------------------
-----------------------------------------8-8--------------10-10-------------
-0-0-3-3-0-0-3-0-0-6-6-0-0-3-0-0------0-0-3-0-0----------0-0-3-----

verse(riff two)
-------------------------------------------------------------
---------------------------------------------------------------
--------------------------------------------------------------
-1-0-1-0-----1-0-1-0-----1-0-1-0----1-0-1-0-5-0-5-0--

variation of riff 2

-----------------------------------------------------------------
---------------------------------------------------------------
-----------------------------------------------------------------
-1-0-1-0-xxxx-1-0-1-0-xxxx 1-0-1-0-xxxxxxxx--------------

v.1.1; Pavel Eder © 2008-2009 všechna práva vyhrazena.

Vytvořte si webové stránky zdarma!Webnode