Slyšíš ty svaté hory?

X bass

19.01.2009 20:20
F|----------------|
C|----------------|
G|--5--55--5--55--|
C|----------------|

riff I
                                    x2                    end riff I
F|----------------------------------|-------------------------------|
C|----------------------------------|-------------------------------|
G|-----------/8888------------5h6-6-|-----------/8888-----------666-|
C|-0--0--0-00------00-0--0-00-------|-0--0--0-00------00-0--0-00----|

riff II
            x16
F|-----------|
C|-----------|
G|--3-5-6-5--|
C|-----------|

riff I (play first bar only once)
riff II x24
riff I (this time play first bar only, twice)

                                       x2
F||---------|---------------------------||
C||*--------|--------------------------*||
G||*--------|--------------------------*||
C||--111-0--|--0--0-0--0--0--0--0-0--0--||

riff II x24

v.1.1; Pavel Eder © 2008-2009 všechna práva vyhrazena.

Vytvořte si webové stránky zdarma!Webnode